  0
SECTION
  2
HEADER
  9
$ACADVER
  1
AC1009
  9
$INSBASE
 10
0.0
 20
0.0
 30
0.0
  9
$EXTMIN
 10
6.4568481799876869
 20
2.749053979233202
 30
-0.0015258207003583
  9
$EXTMAX
 10
15.78240970031173
 20
6.0037536795760431
 30
0.0000000349246037
  9
$LIMMIN
 10
0.0
 20
0.0
  9
$LIMMAX
 10
12.0
 20
9.0
  9
$ORTHOMODE
 70
     0
  9
$REGENMODE
 70
     1
  9
$FILLMODE
 70
     1
  9
$QTEXTMODE
 70
     0
  9
$MIRRTEXT
 70
     1
  9
$DRAGMODE
 70
     2
  9
$LTSCALE
 40
1.0
  9
$OSMODE
 70
     0
  9
$ATTMODE
 70
     1
  9
$TEXTSIZE
 40
0.2
  9
$TRACEWID
 40
0.05
  9
$TEXTSTYLE
  7
STANDARD
  9
$CLAYER
  8
0
  9
$CELTYPE
  6
BYLAYER
  9
$CECOLOR
 62
   256
  9
$DIMSCALE
 40
1.0
  9
$DIMASZ
 40
0.18
  9
$DIMEXO
 40
0.0625
  9
$DIMDLI
 40
0.38
  9
$DIMRND
 40
0.0
  9
$DIMDLE
 40
0.0
  9
$DIMEXE
 40
0.18
  9
$DIMTP
 40
0.0
  9
$DIMTM
 40
0.0
  9
$DIMTXT
 40
0.18
  9
$DIMCEN
 40
0.09
  9
$DIMTSZ
 40
0.0
  9
$DIMTOL
 70
     0
  9
$DIMLIM
 70
     0
  9
$DIMTIH
 70
     1
  9
$DIMTOH
 70
     1
  9
$DIMSE1
 70
     0
  9
$DIMSE2
 70
     0
  9
$DIMTAD
 70
     0
  9
$DIMZIN
 70
     0
  9
$DIMBLK
  1

  9
$DIMASO
 70
     1
  9
$DIMSHO
 70
     1
  9
$DIMPOST
  1

  9
$DIMAPOST
  1

  9
$DIMALT
 70
     0
  9
$DIMALTD
 70
     2
  9
$DIMALTF
 40
25.399999999999999
  9
$DIMLFAC
 40
1.0
  9
$DIMTOFL
 70
     0
  9
$DIMTVP
 40
0.0
  9
$DIMTIX
 70
     0
  9
$DIMSOXD
 70
     0
  9
$DIMSAH
 70
     0
  9
$DIMBLK1
  1

  9
$DIMBLK2
  1

  9
$DIMSTYLE
  2
STANDARD
  9
$DIMCLRD
 70
     0
  9
$DIMCLRE
 70
     0
  9
$DIMCLRT
 70
     0
  9
$DIMTFAC
 40
1.0
  9
$DIMGAP
 40
0.09
  9
$LUNITS
 70
     2
  9
$LUPREC
 70
     4
  9
$SKETCHINC
 40
0.1
  9
$FILLETRAD
 40
0.5
  9
$AUNITS
 70
     0
  9
$AUPREC
 70
     0
  9
$MENU
  1
.
  9
$ELEVATION
 40
0.0
  9
$PELEVATION
 40
0.0
  9
$THICKNESS
 40
0.0
  9
$LIMCHECK
 70
     0
  9
$BLIPMODE
 70
     0
  9
$CHAMFERA
 40
0.5
  9
$CHAMFERB
 40
0.5
  9
$SKPOLY
 70
     0
  9
$TDCREATE
 40
2453230.5554356012
  9
$TDUPDATE
 40
2453230.5573396869
  9
$TDINDWG
 40
0.0019053588
  9
$TDUSRTIMER
 40
0.0019051736
  9
$USRTIMER
 70
     1
  9
$ANGBASE
 50
0.0
  9
$ANGDIR
 70
     0
  9
$PDMODE
 70
     0
  9
$PDSIZE
 40
0.0
  9
$PLINEWID
 40
0.0
  9
$COORDS
 70
     0
  9
$SPLFRAME
 70
     0
  9
$SPLINETYPE
 70
     6
  9
$SPLINESEGS
 70
     8
  9
$ATTDIA
 70
     0
  9
$ATTREQ
 70
     1
  9
$HANDLING
 70
     1
  9
$HANDSEED
  5
2C2
  9
$SURFTAB1
 70
     6
  9
$SURFTAB2
 70
     6
  9
$SURFTYPE
 70
     6
  9
$SURFU
 70
     6
  9
$SURFV
 70
     6
  9
$UCSNAME
  2

  9
$UCSORG
 10
0.0
 20
0.0
 30
0.0
  9
$UCSXDIR
 10
1.0
 20
0.0
 30
0.0
  9
$UCSYDIR
 10
0.0
 20
1.0
 30
0.0
  9
$PUCSNAME
  2

  9
$PUCSORG
 10
0.0
 20
0.0
 30
0.0
  9
$PUCSXDIR
 10
1.0
 20
0.0
 30
0.0
  9
$PUCSYDIR
 10
0.0
 20
1.0
 30
0.0
  9
$USERI1
 70
     0
  9
$USERI2
 70
     0
  9
$USERI3
 70
     0
  9
$USERI4
 70
     0
  9
$USERI5
 70
     0
  9
$USERR1
 40
0.0
  9
$USERR2
 40
0.0
  9
$USERR3
 40
0.0
  9
$USERR4
 40
0.0
  9
$USERR5
 40
0.0
  9
$WORLDVIEW
 70
     1
  9
$SHADEDGE
 70
     3
  9
$SHADEDIF
 70
    70
  9
$TILEMODE
 70
     1
  9
$MAXACTVP
 70
    64
  9
$PLIMCHECK
 70
     0
  9
$PEXTMIN
 10
1.0000000000000000E+020
 20
1.0000000000000000E+020
 30
1.0000000000000000E+020
  9
$PEXTMAX
 10
-1.0000000000000000E+020
 20
-1.0000000000000000E+020
 30
-1.0000000000000000E+020
  9
$PLIMMIN
 10
0.0
 20
0.0
  9
$PLIMMAX
 10
12.0
 20
9.0
  9
$UNITMODE
 70
     0
  9
$VISRETAIN
 70
     1
  9
$PLINEGEN
 70
     0
  9
$PSLTSCALE
 70
     1
  0
ENDSEC
  0
SECTION
  2
TABLES
  0
TABLE
  2
VPORT
 70
     3
  0
VPORT
  2
*ACTIVE
 70
     0
 10
0.0
 20
0.0
 11
1.0
 21
1.0
 12
11.11962894014971
 22
4.376403829404623
 13
0.0
 23
0.0
 14
0.5
 24
0.5
 15
0.5
 25
0.5
 16
0.0
 26
0.0
 36
1.0
 17
0.0
 27
0.0
 37
0.0
 40
4.7408126293347834
 41
1.9786407766990279
 42
50.0
 43
0.0
 44
0.0
 50
0.0
 51
0.0
 71
     0
 72
 20000
 73
     1
 74
     3
 75
     0
 76
     0
 77
     0
 78
     0
  0
ENDTAB
  0
TABLE
  2
LTYPE
 70
     1
  0
LTYPE
  2
CONTINUOUS
 70
     0
  3
Solid line
 72
    65
 73
     0
 40
0.0
  0
ENDTAB
  0
TABLE
  2
LAYER
 70
     2
  0
LAYER
  2
0
 70
     0
 62
     7
  6
CONTINUOUS
  0
LAYER
  2
LINE
 70
     0
 62
     1
  6
CONTINUOUS
  0
ENDTAB
  0
TABLE
  2
STYLE
 70
     2
  0
STYLE
  2
STANDARD
 70
     0
 40
0.0
 41
1.0
 50
0.0
 71
     0
 42
0.2
  3
txt
  4

  0
STYLE
  2
ARIAL
 70
     0
 40
0.0
 41
1.0
 50
0.0
 71
     0
 42
0.4600000000000001
  3
txt
  4

  0
ENDTAB
  0
TABLE
  2
VIEW
 70
     0
  0
ENDTAB
  0
TABLE
  2
UCS
 70
     0
  0
ENDTAB
  0
TABLE
  2
APPID
 70
     3
  0
APPID
  2
ACAD
 70
     0
  0
APPID
  2
ADE
 70
     0
  0
APPID
  2
DCO15
 70
     0
  0
ENDTAB
  0
TABLE
  2
DIMSTYLE
 70
     1
  0
DIMSTYLE
  2
STANDARD
 70
     0
  3

  4

  5

  6

  7

 40
1.0
 41
0.18
 42
0.0625
 43
0.38
 44
0.18
 45
0.0
 46
0.0
 47
0.0
 48
0.0
140
0.18
141
0.09
142
0.0
143
25.399999999999999
144
1.0
145
0.0
146
1.0
147
0.09
 71
     0
 72
     0
 73
     1
 74
     1
 75
     0
 76
     0
 77
     0
 78
     0
170
     0
171
     2
172
     0
173
     0
174
     0
175
     0
176
     0
177
     0
178
     0
  0
ENDTAB
  0
ENDSEC
  0
SECTION
  2
BLOCKS
  0
BLOCK
  8
0
  2
$MODEL_SPACE
 70
     0
 10
0.0
 20
0.0
 30
0.0
  3
$MODEL_SPACE
  1

  0
ENDBLK
  5
21
  8
0
  0
BLOCK
 67
     1
  8
0
  2
$PAPER_SPACE
 70
     0
 10
0.0
 20
0.0
 30
0.0
  3
$PAPER_SPACE
  1

  0
ENDBLK
  5
1D
 67
     1
  8
0
  0
ENDSEC
  0
SECTION
  2
ENTITIES
  0
POLYLINE
  5
50
  8
LINE
 62
     7
 66
     1
 10
0.0
 20
0.0
 30
0.0
 70
   129
  0
VERTEX
  5
19F
  8
LINE
 62
     7
 10
9.4599590060146355
 20
3.400139386782894
 30
0.0
  0
VERTEX
  5
1A0
  8
LINE
 62
     7
 10
9.5285762929948472
 20
3.400139386782894
 30
0.0
  0
VERTEX
  5
1A1
  8
LINE
 62
     7
 10
9.7148232147982831
 20
2.939423317058603
 30
0.0
  0
VERTEX
  5
1A2
  8
LINE
 62
     7
 10
9.6462059278180714
 20
2.939423317058603
 30
0.0
  0
VERTEX
  5
1A3
  8
LINE
 62
     7
 10
9.5922923451907618
 20
3.0766578910190301
 30
0.0
  0
VERTEX
  5
1A4
  8
LINE
 62
     7
 10
9.4011441886030234
 20
3.0766578910190301
 30
0.0
  0
VERTEX
  5
1A5
  8
LINE
 62
     7
 10
9.3472306059757102
 20
2.939423317058603
 30
0.0
  0
VERTEX
  5
1A6
  8
LINE
 62
     7
 10
9.2835145537797992
 20
2.939423317058603
 30
0.0
  0
SEQEND
  5
1A7
  8
LINE
 62
     7
  0
POLYLINE
  5
51
  8
LINE
 62
     7
 66
     1
 10
0.0
 20
0.0
 30
0.0
 70
   129
  0
VERTEX
  5
1A8
  8
LINE
 62
     7
 10
6.6971878528826929
 20
2.939423317058603
 30
0.0
  0
VERTEX
  5
1A9
  8
LINE
 62
     7
 10
6.8736323051175301
 20
3.400139386782894
 30
0.0
  0
VERTEX
  5
1AA
  8
LINE
 62
     7
 10
6.8148174877059171
 20
3.400139386782894
 30
0.0
  0
VERTEX
  5
1AB
  8
LINE
 62
     7
 10
6.6618989624357274
 20
2.9943171466427771
 30
0.0
  0
VERTEX
  5
1AC
  8
LINE
 62
     7
 10
6.5207434006478593
 20
3.400139386782894
 30
0.0
  0
VERTEX
  5
1AD
  8
LINE
 62
     7
 10
6.4570273484519456
 20
3.400139386782894
 30
0.0
  0
VERTEX
  5
1AE
  8
LINE
 62
     7
 10
6.6334718006867801
 20
2.939423317058603
 30
0.0
  0
SEQEND
  5
1AF
  8
LINE
 62
     7
  0
POLYLINE
  5
52
  8
LINE
 62
     7
 66
     1
 10
0.0
 20
0.0
 30
0.0
 70
   129
  0
VERTEX
  5
1B0
  8
LINE
 62
     7
 10
8.1388969036251524
 20
3.400139386782894
 30
0.0
  0
VERTEX
  5
1B1
  8
LINE
 62
     7
 10
8.222217894958268
 20
3.400139386782894
 30
0.0
  0
VERTEX
  5
1B2
  8
LINE
 62
     7
 10
8.0261685035862271
 20
3.213892464979458
 30
0.0
  0
VERTEX
  5
1B3
  8
LINE
 62
     7
 10
8.2271191297425688
 20
2.939423317058603
 30
0.0
  0
VERTEX
  5
1B4
  8
LINE
 62
     7
 10
8.1486993731937538
 20
2.939423317058603
 30
0.0
  0
VERTEX
  5
1B5
  8
LINE
 62
     7
 10
7.9869586253118214
 20
3.1697813519207481
 30
0.0
  0
VERTEX
  5
1B6
  8
LINE
 62
     7
 10
7.9085388687630056
 20
3.0962628301562338
 30
0.0
  0
VERTEX
  5
1B7
  8
LINE
 62
     7
 10
7.9085388687630056
 20
2.939423317058603
 30
0.0
  0
VERTEX
  5
1B8
  8
LINE
 62
     7
 10
7.8497240513513944
 20
2.939423317058603
 30
0.0
  0
VERTEX
  5
1B9
  8
LINE
 62
     7
 10
7.8497240513513944
 20
3.400139386782894
 30
0.0
  0
VERTEX
  5
1BA
  8
LINE
 62
     7
 10
7.9085388687630056
 20
3.400139386782894
 30
0.0
  0
VERTEX
  5
1BB
  8
LINE
 62
     7
 10
7.9085388687630056
 20
3.1697813519207481
 30
0.0
  0
SEQEND
  5
1BC
  8
LINE
 62
     7
  0
POLYLINE
  5
53
  8
LINE
 62
     7
 66
     1
 10
0.0
 20
0.0
 30
0.0
 70
   129
  0
VERTEX
  5
1BD
  8
LINE
 62
     7
 10
7.5026775759438058
 20
2.939423317058603
 30
0.0
  0
VERTEX
  5
1BE
  8
LINE
 62
     7
 10
7.7869491934332631
 20
2.939423317058603
 30
0.0
  0
VERTEX
  5
1BF
  8
LINE
 62
     7
 10
7.7869491934332631
 20
2.993336899685914
 30
0.0
  0
VERTEX
  5
1C0
  8
LINE
 62
     7
 10
7.5614923933554179
 20
2.993336899685914
 30
0.0
  0
VERTEX
  5
1C1
  8
LINE
 62
     7
 10
7.5614923933554179
 20
3.400139386782894
 30
0.0
  0
VERTEX
  5
1C2
  8
LINE
 62
     7
 10
7.5026775759438058
 20
3.400139386782894
 30
0.0
  0
SEQEND
  5
1C3
  8
LINE
 62
     7
  0
POLYLINE
  5
54
  8
LINE
 62
     7
 66
     1
 10
0.0
 20
0.0
 30
0.0
 70
   129
  0
VERTEX
  5
1C4
  8
LINE
 62
     7
 10
7.1678900412807849
 20
2.9896814602722439
 30
0.0
 42
-0.2789976178031937
  0
VERTEX
  5
1C5
  8
LINE
 62
     7
 10
7.0285564910411846
 20
3.0793441285493892
 30
0.0
 42
-0.2233363232769685
  0
VERTEX
  5
1C6
  8
LINE
 62
     7
 10
7.0258498238726634
 20
3.2553426611448488
 30
0.0
 42
-0.3003197705341176
  0
VERTEX
  5
1C7
  8
LINE
 62
     7
 10
7.1678900412804953
 20
3.3450317606179469
 30
0.0
 42
-0.3003197705328803
  0
VERTEX
  5
1C8
  8
LINE
 62
     7
 10
7.3099302586876354
 20
3.2553426611448488
 30
0.0
 42
-0.2233363232769685
  0
VERTEX
  5
1C9
  8
LINE
 62
     7
 10
7.3072235915191124
 20
3.0793441285493892
 30
0.0
 42
-0.2789976178010356
  0
SEQEND
  5
1CA
  8
LINE
 62
     7
  0
POLYLINE
  5
55
  8
LINE
 62
     7
 66
     1
 10
0.0
 20
0.0
 30
0.0
 70
   129
  0
VERTEX
  5
1CB
  8
LINE
 62
     7
 10
7.16789004128076
 20
2.9296647856663349
 30
0.0
 42
-0.2810301646620936
  0
VERTEX
  5
1CC
  8
LINE
 62
     7
 10
6.9746565701439076
 20
3.0529850973216051
 30
0.0
 42
-0.2233363232769708
  0
VERTEX
  5
1CD
  8
LINE
 62
     7
 10
6.9711648377065956
 20
3.2800317738874551
 30
0.0
 42
-0.2987587594166079
  0
VERTEX
  5
1CE
  8
LINE
 62
     7
 10
7.1678900412801481
 20
3.4050406215671951
 30
0.0
 42
-0.2987587594166079
  0
VERTEX
  5
1CF
  8
LINE
 62
     7
 10
7.3646152448537006
 20
3.2800317738874551
 30
0.0
 42
-0.2233363232769708
  0
VERTEX
  5
1D0
  8
LINE
 62
     7
 10
7.3611235124163894
 20
3.0529850973216051
 30
0.0
 42
-0.2810301646605959
  0
SEQEND
  5
1D1
  8
LINE
 62
     7
  0
POLYLINE
  5
56
  8
LINE
 62
     7
 66
     1
 10
0.0
 20
0.0
 30
0.0
 70
   129
  0
VERTEX
  5
1D2
  8
LINE
 62
     7
 10
8.3104655796394873
 20
3.063508434714961
 30
0.0
  0
VERTEX
  5
1D3
  8
LINE
 62
     7
 10
8.2548732983789801
 20
3.0331311860563712
 30
0.0
 42
0.1774150764637479
  0
VERTEX
  5
1D4
  8
LINE
 62
     7
 10
8.3309779870454346
 20
2.9522687756504999
 30
0.0
 42
0.215064355247097
  0
VERTEX
  5
1D5
  8
LINE
 62
     7
 10
8.5106982477685786
 20
2.9449235076160969
 30
0.0
 42
0.1295925866638806
  0
VERTEX
  5
1D6
  8
LINE
 62
     7
 10
8.5928245090223996
 20
3.0061436925217468
 30
0.0
 42
0.3761426190571457
  0
VERTEX
  5
1D7
  8
LINE
 62
     7
 10
8.5862270898591646
 20
3.1461941828582591
 30
0.0
 42
0.15600387201887
  0
VERTEX
  5
1D8
  8
LINE
 62
     7
 10
8.4970658621035025
 20
3.1942875258422538
 30
0.0
  0
VERTEX
  5
1D9
  8
LINE
 62
     7
 10
8.4284485751232872
 20
3.2089912301951569
 30
0.0
 42
-0.0861768474308957
  0
VERTEX
  5
1DA
  8
LINE
 62
     7
 10
8.3477086954138784
 20
3.2395931778689109
 30
0.0
 42
-0.485696794080648
  0
VERTEX
  5
1DB
  8
LINE
 62
     7
 10
8.336814951215274
 20
3.3214543822320648
 30
0.0
 42
-0.4867765383827014
  0
VERTEX
  5
1DC
  8
LINE
 62
     7
 10
8.5208341901715876
 20
3.3016496331802809
 30
0.0
  0
VERTEX
  5
1DD
  8
LINE
 62
     7
 10
8.5738673188977685
 20
3.336700874896231
 30
0.0
 42
0.036047175919191
  0
VERTEX
  5
1DE
  8
LINE
 62
     7
 10
8.5607819142994153
 20
3.3560282737241849
 30
0.0
 42
0.0910558354958495
  0
VERTEX
  5
1DF
  8
LINE
 62
     7
 10
8.4823621577505985
 20
3.400139386782894
 30
0.0
 42
0.3263748363132016
  0
VERTEX
  5
1E0
  8
LINE
 62
     7
 10
8.2765102968099562
 20
3.336423334586982
 30
0.0
 42
0.5095773790148505
  0
VERTEX
  5
1E1
  8
LINE
 62
     7
 10
8.3255226446529687
 20
3.1795838214893508
 30
0.0
 42
0.0189117493783913
  0
VERTEX
  5
1E2
  8
LINE
 62
     7
 10
8.4622067123888201
 20
3.139162621673925
 30
0.0
 42
-0.0563162583017394
  0
VERTEX
  5
1E3
  8
LINE
 62
     7
 10
8.5103701464401311
 20
3.1209112138175601
 30
0.0
 42
-0.5972249545156954
  0
VERTEX
  5
1E4
  8
LINE
 62
     7
 10
8.5125829221987388
 20
3.0062899003938659
 30
0.0
 42
-0.4594769665007322
  0
SEQEND
  5
1E5
  8
LINE
 62
     7
  0
POLYLINE
  5
57
  8
LINE
 62
     7
 66
     1
 10
0.0
 20
0.0
 30
0.0
 70
   129
  0
VERTEX
  5
1E6
  8
LINE
 62
     7
 10
9.4950989543444813
 20
3.327400213305638
 30
0.0
  0
VERTEX
  5
1E7
  8
LINE
 62
     7
 10
9.5726874060535572
 20
3.1256702388620399
 30
0.0
  0
VERTEX
  5
1E8
  8
LINE
 62
     7
 10
9.4158478929559255
 20
3.1256702388620399
 30
0.0
  0
SEQEND
  5
1E9
  8
LINE
 62
     7
  0
POLYLINE
  5
58
  8
LINE
 62
     7
 66
     1
 10
0.0
 20
0.0
 30
0.0
 70
   129
  0
VERTEX
  5
1EA
  8
LINE
 62
     7
 10
9.1919554715172165
 20
3.400139386782894
 30
0.0
  0
VERTEX
  5
1EB
  8
LINE
 62
     7
 10
9.2507702889288286
 20
3.400139386782894
 30
0.0
  0
VERTEX
  5
1EC
  8
LINE
 62
     7
 10
9.1233381845370012
 20
2.939423317058603
 30
0.0
  0
VERTEX
  5
1ED
  8
LINE
 62
     7
 10
9.0645233671253926
 20
2.939423317058603
 30
0.0
  0
VERTEX
  5
1EE
  8
LINE
 62
     7
 10
8.9570732199311003
 20
3.3409475513109501
 30
0.0
  0
VERTEX
  5
1EF
  8
LINE
 62
     7
 10
8.8439678018318482
 20
2.939423317058603
 30
0.0
  0
VERTEX
  5
1F0
  8
LINE
 62
     7
 10
8.7802517496359354
 20
2.939423317058603
 30
0.0
  0
VERTEX
  5
1F1
  8
LINE
 62
     7
 10
8.6577208800284104
 20
3.400139386782894
 30
0.0
  0
VERTEX
  5
1F2
  8
LINE
 62
     7
 10
8.7214369322243233
 20
3.400139386782894
 30
0.0
  0
VERTEX
  5
1F3
  8
LINE
 62
     7
 10
8.8115191141060407
 20
3.0012040098781458
 30
0.0
  0
VERTEX
  5
1F4
  8
LINE
 62
     7
 10
8.9174863235963624
 20
3.400139386782894
 30
0.0
  0
VERTEX
  5
1F5
  8
LINE
 62
     7
 10
8.9910048453608766
 20
3.400139386782894
 30
0.0
  0
VERTEX
  5
1F6
  8
LINE
 62
     7
 10
9.1000339652703524
 20
3.0263252613789779
 30
0.0
  0
SEQEND
  5
1F7
  8
LINE
 62
     7
  0
POLYLINE
  5
59
  8
LINE
 62
     7
 66
     1
 10
0.0
 20
0.0
 30
0.0
 70
   129
  0
VERTEX
  5
1F8
  8
LINE
 62
     7
 10
15.56803804624224
 20
3.4045712632635299
 30
0.0
  0
VERTEX
  5
1F9
  8
LINE
 62
     7
 10
15.548251352127069
 20
3.3504652187544379
 30
0.0
  0
VERTEX
  5
1FA
  8
LINE
 62
     7
 10
15.53439930621847
 20
3.4045712632635299
 30
0.0
  0
VERTEX
  5
1FB
  8
LINE
 62
     7
 10
15.223340803601451
 20
3.4045712632635299
 30
0.0
 42
0.3148787469664191
  0
VERTEX
  5
1FC
  8
LINE
 62
     7
 10
15.14820730188074
 20
3.352047742644682
 30
0.0
  0
VERTEX
  5
1FD
  8
LINE
 62
     7
 10
15.035639387112569
 20
3.0442345945113982
 30
0.0
 42
0.5210528002024776
  0
VERTEX
  5
1FE
  8
LINE
 62
     7
 10
15.11077288883329
 20
2.9367581151302451
 30
0.0
  0
VERTEX
  5
1FF
  8
LINE
 62
     7
 10
15.37737740099233
 20
2.9367581151302451
 30
0.0
  0
VERTEX
  5
200
  8
LINE
 62
     7
 10
15.34186351604604
 20
2.839646600270306
 30
0.0
  0
VERTEX
  5
201
  8
LINE
 62
     7
 10
15.001249123289471
 20
2.839646600270306
 30
0.0
  0
VERTEX
  5
202
  8
LINE
 62
     7
 10
14.99124696962129
 20
2.7658418473003721
 30
0.0
  0
VERTEX
  5
203
  8
LINE
 62
     7
 10
15.471266581522331
 20
2.7658418473003712
 30
0.0
 42
0.31487874696642
  0
VERTEX
  5
204
  8
LINE
 62
     7
 10
15.574575146388311
 20
2.8380616881512868
 30
0.0
  0
VERTEX
  5
205
  8
LINE
 62
     7
 10
15.781748887839321
 20
3.4045712632635299
 30
0.0
  0
SEQEND
  5
206
  8
LINE
 62
     7
  0
POLYLINE
  5
5A
  8
LINE
 62
     7
 66
     1
 10
0.0
 20
0.0
 30
0.0
 70
   129
  0
VERTEX
  5
207
  8
LINE
 62
     7
 10
12.52407473774011
 20
3.179073214496861
 30
0.0
  0
VERTEX
  5
208
  8
LINE
 62
     7
 10
12.567662116771739
 20
3.1891160871786162
 30
0.0
 42
0.2550384890031827
  0
VERTEX
  5
209
  8
LINE
 62
     7
 10
12.676638559128209
 20
3.2858365708989399
 30
0.0
  0
VERTEX
  5
20A
  8
LINE
 62
     7
 10
12.73421849858444
 20
3.4458187010860502
 30
0.0
 42
0.5194282408196473
  0
VERTEX
  5
20B
  8
LINE
 62
     7
 10
12.629255726381761
 20
3.595150537611612
 30
0.0
  0
VERTEX
  5
20C
  8
LINE
 62
     7
 10
12.053675370561679
 20
3.595150537611612
 30
0.0
  0
VERTEX
  5
20D
  8
LINE
 62
     7
 10
11.81671018088344
 20
2.9367581151302451
 30
0.0
  0
VERTEX
  5
20E
  8
LINE
 62
     7
 10
12.07449279533704
 20
2.9367581151302451
 30
0.0
  0
VERTEX
  5
20F
  8
LINE
 62
     7
 10
12.159042608464659
 20
3.1716742914725509
 30
0.0
  0
VERTEX
  5
210
  8
LINE
 62
     7
 10
12.27297175796984
 20
3.1716742914725509
 30
0.0
  0
VERTEX
  5
211
  8
LINE
 62
     7
 10
12.395832691240569
 20
2.9367581151302451
 30
0.0
  0
VERTEX
  5
212
  8
LINE
 62
     7
 10
12.67618330251714
 20
2.9367581151302451
 30
0.0
  0
SEQEND
  5
213
  8
LINE
 62
     7
  0
POLYLINE
  5
5B
  8
LINE
 62
     7
 66
     1
 10
0.0
 20
0.0
 30
0.0
 70
   129
  0
VERTEX
  5
214
  8
LINE
 62
     7
 10
10.768129383750621
 20
3.400139386782894
 30
0.0
  0
VERTEX
  5
215
  8
LINE
 62
     7
 10
10.83184543594653
 20
3.400139386782894
 30
0.0
  0
VERTEX
  5
216
  8
LINE
 62
     7
 10
11.072005940377281
 20
3.0374480127446222
 30
0.0
  0
VERTEX
  5
217
  8
LINE
 62
     7
 10
11.072005940377281
 20
3.400139386782894
 30
0.0
  0
VERTEX
  5
218
  8
LINE
 62
     7
 10
11.130820757788889
 20
3.400139386782894
 30
0.0
  0
VERTEX
  5
219
  8
LINE
 62
     7
 10
11.130820757788889
 20
2.939423317058603
 30
0.0
  0
VERTEX
  5
21A
  8
LINE
 62
     7
 10
11.06710470559298
 20
2.939423317058603
 30
0.0
  0
VERTEX
  5
21B
  8
LINE
 62
     7
 10
10.826944201162229
 20
3.3021146910968748
 30
0.0
  0
VERTEX
  5
21C
  8
LINE
 62
     7
 10
10.826944201162229
 20
2.939423317058603
 30
0.0
  0
VERTEX
  5
21D
  8
LINE
 62
     7
 10
10.768129383750621
 20
2.939423317058603
 30
0.0
  0
SEQEND
  5
21E
  8
LINE
 62
     7
  0
POLYLINE
  5
5C
  8
LINE
 62
     7
 66
     1
 10
0.0
 20
0.0
 30
0.0
 70
   129
  0
VERTEX
  5
21F
  8
LINE
 62
     7
 10
10.627557953645031
 20
3.2040899954108548
 30
0.0
  0
VERTEX
  5
220
  8
LINE
 62
     7
 10
10.37269374486138
 20
3.2040899954108548
 30
0.0
  0
VERTEX
  5
221
  8
LINE
 62
     7
 10
10.37269374486138
 20
3.3462258041555839
 30
0.0
  0
VERTEX
  5
222
  8
LINE
 62
     7
 10
10.64716289278223
 20
3.3462258041555839
 30
0.0
  0
VERTEX
  5
223
  8
LINE
 62
     7
 10
10.64716289278223
 20
3.400139386782894
 30
0.0
  0
VERTEX
  5
224
  8
LINE
 62
     7
 10
10.313878927449769
 20
3.400139386782894
 30
0.0
  0
VERTEX
  5
225
  8
LINE
 62
     7
 10
10.313878927449769
 20
2.939423317058603
 30
0.0
  0
VERTEX
  5
226
  8
LINE
 62
     7
 10
10.65696536235083
 20
2.939423317058603
 30
0.0
  0
VERTEX
  5
227
  8
LINE
 62
     7
 10
10.65696536235083
 20
2.993336899685914
 30
0.0
  0
VERTEX
  5
228
  8
LINE
 62
     7
 10
10.37269374486138
 20
2.993336899685914
 30
0.0
  0
VERTEX
  5
229
  8
LINE
 62
     7
 10
10.37269374486138
 20
3.1501764127835452
 30
0.0
  0
VERTEX
  5
22A
  8
LINE
 62
     7
 10
10.627557953645031
 20
3.1501764127835452
 30
0.0
  0
SEQEND
  5
22B
  8
LINE
 62
     7
  0
POLYLINE
  5
5D
  8
LINE
 62
     7
 66
     1
 10
0.0
 20
0.0
 30
0.0
 70
   129
  0
VERTEX
  5
22C
  8
LINE
 62
     7
 10
10.06324136339556
 20
2.992690254101058
 30
0.0
 42
-0.2642190092039037
  0
VERTEX
  5
22D
  8
LINE
 62
     7
 10
9.8856294155641393
 20
3.0320260183650101
 30
0.0
 42
-0.2843188664885934
  0
VERTEX
  5
22E
  8
LINE
 62
     7
 10
9.8541482681766581
 20
3.2505719745886452
 30
0.0
 42
-0.3763108147385768
  0
VERTEX
  5
22F
  8
LINE
 62
     7
 10
10.057823022091959
 20
3.346458948538833
 30
0.0
 42
-0.3554669352164733
  0
VERTEX
  5
230
  8
LINE
 62
     7
 10
10.145234812441309
 20
3.2531023432538588
 30
0.0
  0
VERTEX
  5
231
  8
LINE
 62
     7
 10
10.19914839506864
 20
3.2678060476067681
 30
0.0
 42
0.327537624418864
  0
VERTEX
  5
232
  8
LINE
 62
     7
 10
10.069363444155149
 20
3.4003354573263662
 30
0.0
 42
0.3715275137809302
  0
VERTEX
  5
233
  8
LINE
 62
     7
 10
9.8037275627132754
 20
3.2725436031258042
 30
0.0
 42
0.2882028973150137
  0
VERTEX
  5
234
  8
LINE
 62
     7
 10
9.8459222123693468
 20
2.9938187257282332
 30
0.0
 42
0.268538073786389
  0
VERTEX
  5
235
  8
LINE
 62
     7
 10
10.079425573433999
 20
2.940125329051825
 30
0.0
 42
0.0849355856548037
  0
VERTEX
  5
236
  8
LINE
 62
     7
 10
10.204049629852941
 20
3.003139369254515
 30
0.0
  0
VERTEX
  5
237
  8
LINE
 62
     7
 10
10.204049629852941
 20
3.1746825867050501
 30
0.0
  0
VERTEX
  5
238
  8
LINE
 62
     7
 10
10.012901473265201
 20
3.1746825867050501
 30
0.0
  0
VERTEX
  5
239
  8
LINE
 62
     7
 10
10.012901473265201
 20
3.1207690040777392
 30
0.0
  0
VERTEX
  5
23A
  8
LINE
 62
     7
 10
10.145234812441331
 20
3.1207690040777392
 30
0.0
  0
VERTEX
  5
23B
  8
LINE
 62
     7
 10
10.145234812441331
 20
3.0297315121473449
 30
0.0
 42
-0.062900813163664
  0
SEQEND
  5
23C
  8
LINE
 62
     7
  0
POLYLINE
  5
5E
  8
LINE
 62
     7
 66
     1
 10
0.0
 20
0.0
 30
0.0
 70
   129
  0
VERTEX
  5
23D
  8
LINE
 62
     7
 10
11.53472631185093
 20
3.3074028299645191
 30
0.0
  0
VERTEX
  5
23E
  8
LINE
 62
     7
 10
11.408254156632021
 20
3.30740282996452
 30
0.0
  0
VERTEX
  5
23F
  8
LINE
 62
     7
 10
11.325518634076211
 20
3.0775275423969992
 30
0.0
  0
VERTEX
  5
240
  8
LINE
 62
     7
 10
11.472526815675939
 20
3.0775275423969992
 30
0.0
 42
0.2973947631290758
  0
VERTEX
  5
241
  8
LINE
 62
     7
 10
11.61506663332449
 20
3.170534617779416
 30
0.0
  0
VERTEX
  5
242
  8
LINE
 62
     7
 10
11.645130448267309
 20
3.2388559804415928
 30
0.0
 42
-0.2973947631290772
  0
VERTEX
  5
243
  8
LINE
 62
     7
 10
11.84874815079001
 20
3.3717163090160089
 30
0.0
  0
VERTEX
  5
244
  8
LINE
 62
     7
 10
11.916055793838741
 20
3.3717163090160089
 30
0.0
  0
VERTEX
  5
245
  8
LINE
 62
     7
 10
11.996473083819421
 20
3.595150537611612
 30
0.0
  0
VERTEX
  5
246
  8
LINE
 62
     7
 10
11.895951005760679
 20
3.595150537611612
 30
0.0
 42
0.2954255207507431
  0
VERTEX
  5
247
  8
LINE
 62
     7
 10
11.710900310811139
 20
3.47535810924406
 30
0.0
  0
VERTEX
  5
248
  8
LINE
 62
     7
 10
11.676808235433191
 20
3.399379456465125
 30
0.0
 42
-0.2954255207507431
  0
SEQEND
  5
249
  8
LINE
 62
     7
  0
POLYLINE
  5
5F
  8
LINE
 62
     7
 66
     1
 10
0.0
 20
0.0
 30
0.0
 70
   129
  0
VERTEX
  5
24A
  8
LINE
 62
     7
 10
11.759507894141191
 20
2.9367581151302451
 30
0.0
  0
VERTEX
  5
24B
  8
LINE
 62
     7
 10
11.844117226098501
 20
3.171839660683621
 30
0.0
  0
VERTEX
  5
24C
  8
LINE
 62
     7
 10
11.79410426711353
 20
3.171839660683621
 30
0.0
 42
0.3162846038198634
  0
VERTEX
  5
24D
  8
LINE
 62
     7
 10
11.554254790560201
 20
3.0032536005631441
 30
0.0
  0
VERTEX
  5
24E
  8
LINE
 62
     7
 10
11.53032207994521
 20
2.9367581151302451
 30
0.0
  0
SEQEND
  5
24F
  8
LINE
 62
     7
  0
POLYLINE
  5
60
  8
LINE
 62
     7
 66
     1
 10
0.0
 20
0.0
 30
0.0
 70
   129
  0
VERTEX
  5
250
  8
LINE
 62
     7
 10
12.45547137951908
 20
3.3550141787198289
 30
0.0
 42
-0.3162846038198696
  0
VERTEX
  5
251
  8
LINE
 62
     7
 10
12.37913481791713
 20
3.3013585262308149
 30
0.0
  0
VERTEX
  5
252
  8
LINE
 62
     7
 10
12.205717886366481
 20
3.3013585262308149
 30
0.0
  0
VERTEX
  5
253
  8
LINE
 62
     7
 10
12.2654297760026
 20
3.4672641418271439
 30
0.0
  0
VERTEX
  5
254
  8
LINE
 62
     7
 10
12.43815925445902
 20
3.4672641418271439
 30
0.0
 42
-0.5194282408196445
  0
VERTEX
  5
255
  8
LINE
 62
     7
 10
12.47632753525999
 20
3.412961655817849
 30
0.0
  0
SEQEND
  5
256
  8
LINE
 62
     7
  0
POLYLINE
  5
61
  8
LINE
 62
     7
 66
     1
 10
0.0
 20
0.0
 30
0.0
 70
   129
  0
VERTEX
  5
257
  8
LINE
 62
     7
 10
14.350895813184289
 20
3.4045712632635299
 30
0.0
  0
VERTEX
  5
258
  8
LINE
 62
     7
 10
14.15259824597149
 20
3.4045712632635299
 30
0.0
  0
VERTEX
  5
259
  8
LINE
 62
     7
 10
13.98151799515747
 20
2.9367581151302451
 30
0.0
  0
VERTEX
  5
25A
  8
LINE
 62
     7
 10
14.179815562370271
 20
2.9367581151302451
 30
0.0
  0
SEQEND
  5
25B
  8
LINE
 62
     7
  0
POLYLINE
  5
62
  8
LINE
 62
     7
 66
     1
 10
0.0
 20
0.0
 30
0.0
 70
   129
  0
VERTEX
  5
25C
  8
LINE
 62
     7
 10
12.745040951372919
 20
3.0717154121447661
 30
0.0
 42
-0.4239975824884687
  0
VERTEX
  5
25D
  8
LINE
 62
     7
 10
12.912769982348641
 20
3.2435969316024851
 30
0.0
  0
VERTEX
  5
25E
  8
LINE
 62
     7
 10
13.17184174154108
 20
3.2435969316024851
 30
0.0
  0
VERTEX
  5
25F
  8
LINE
 62
     7
 10
13.19301198262821
 20
3.3014862384195278
 30
0.0
  0
VERTEX
  5
260
  8
LINE
 62
     7
 10
12.83922275141725
 20
3.3014862384195269
 30
0.0
  0
VERTEX
  5
261
  8
LINE
 62
     7
 10
12.876921161510801
 20
3.4045712632635299
 30
0.0
  0
VERTEX
  5
262
  8
LINE
 62
     7
 10
13.34342280846904
 20
3.4045712632635299
 30
0.0
 42
-0.5210528002024794
  0
VERTEX
  5
263
  8
LINE
 62
     7
 10
13.42794799790485
 20
3.2836602239597341
 30
0.0
  0
VERTEX
  5
264
  8
LINE
 62
     7
 10
13.30108516811206
 20
2.9367581151302451
 30
0.0
  0
VERTEX
  5
265
  8
LINE
 62
     7
 10
13.08526755645893
 20
2.9367581151302451
 30
0.0
  0
VERTEX
  5
266
  8
LINE
 62
     7
 10
13.102947024300461
 20
2.9851020208055998
 30
0.0
  0
VERTEX
  5
267
  8
LINE
 62
     7
 10
13.046786441064061
 20
2.9367581151302451
 30
0.0
  0
VERTEX
  5
268
  8
LINE
 62
     7
 10
12.881756309897449
 20
2.9367581151302451
 30
0.0
 42
-0.377691066124058
  0
SEQEND
  5
269
  8
LINE
 62
     7
  0
POLYLINE
  5
63
  8
LINE
 62
     7
 66
     1
 10
0.0
 20
0.0
 30
0.0
 70
   129
  0
VERTEX
  5
26A
  8
LINE
 62
     7
 10
13.638909397636141
 20
3.039843139974248
 30
0.0
  0
VERTEX
  5
26B
  8
LINE
 62
     7
 10
13.9102030403357
 20
3.039843139974248
 30
0.0
 42
-0.5210528002024865
  0
VERTEX
  5
26C
  8
LINE
 62
     7
 10
13.93837810348097
 20
2.9995394602063161
 30
0.0
  0
VERTEX
  5
26D
  8
LINE
 62
     7
 10
13.922621819404609
 20
2.9564544353623128
 30
0.0
 42
-0.3148787469664244
  0
VERTEX
  5
26E
  8
LINE
 62
     7
 10
13.89444675625934
 20
2.9367581151302451
 30
0.0
  0
VERTEX
  5
26F
  8
LINE
 62
     7
 10
13.55175376684991
 20
2.9367581151302451
 30
0.0
 42
-0.5210528002024802
  0
VERTEX
  5
270
  8
LINE
 62
     7
 10
13.448445201983921
 20
3.0845382742793301
 30
0.0
  0
VERTEX
  5
271
  8
LINE
 62
     7
 10
13.539070990734899
 20
3.3323514224126152
 30
0.0
 42
-0.3148787469664191
  0
VERTEX
  5
272
  8
LINE
 62
     7
 10
13.642379555600879
 20
3.4045712632635299
 30
0.0
  0
VERTEX
  5
273
  8
LINE
 62
     7
 10
14.043584881056169
 20
3.4045712632635299
 30
0.0
 42
-0.5210528002024799
  0
VERTEX
  5
274
  8
LINE
 62
     7
 10
14.071759944201441
 20
3.364267583495598
 30
0.0
  0
VERTEX
  5
275
  8
LINE
 62
     7
 10
14.056003660125089
 20
3.3211825586515951
 30
0.0
 42
-0.3148787469664187
  0
VERTEX
  5
276
  8
LINE
 62
     7
 10
14.02782859697982
 20
3.3014862384195269
 30
0.0
  0
VERTEX
  5
277
  8
LINE
 62
     7
 10
13.73459282826307
 20
3.3014862384195278
 30
0.0
  0
SEQEND
  5
278
  8
LINE
 62
     7
  0
POLYLINE
  5
64
  8
LINE
 62
     7
 66
     1
 10
0.0
 20
0.0
 30
0.0
 70
   129
  0
VERTEX
  5
279
  8
LINE
 62
     7
 10
13.02646591433297
 20
3.176108284592785
 30
0.0
 42
0.2113917464583057
  0
VERTEX
  5
27A
  8
LINE
 62
     7
 10
12.93087149244897
 20
3.0880889019138742
 30
0.0
 42
0.4633761409194653
  0
VERTEX
  5
27B
  8
LINE
 62
     7
 10
12.965285504847831
 20
3.0182538335950042
 30
0.0
  0
VERTEX
  5
27C
  8
LINE
 62
     7
 10
13.046786441064061
 20
3.0182538335950042
 30
0.0
 42
0.2660062911055294
  0
VERTEX
  5
27D
  8
LINE
 62
     7
 10
13.12333494654203
 20
3.1186497786601981
 30
0.0
 42
0.3395172675703963
  0
VERTEX
  5
27E
  8
LINE
 62
     7
 10
13.09019554446823
 20
3.176108284592785
 30
0.0
  0
SEQEND
  5
27F
  8
LINE
 62
     7
  0
POLYLINE
  5
65
  8
LINE
 62
     7
 66
     1
 10
0.0
 20
0.0
 30
0.0
 70
   129
  0
VERTEX
  5
280
  8
LINE
 62
     7
 10
15.375801088169361
 20
3.3002361149936781
 30
0.0
 42
0.3148787469664198
  0
VERTEX
  5
281
  8
LINE
 62
     7
 10
15.347626025024089
 20
3.28053979476161
 30
0.0
  0
VERTEX
  5
282
  8
LINE
 62
     7
 10
15.27455643045886
 20
3.0807334646695379
 30
0.0
 42
0.5210528002024737
  0
VERTEX
  5
283
  8
LINE
 62
     7
 10
15.30273149360414
 20
3.040429784901606
 30
0.0
  0
VERTEX
  5
284
  8
LINE
 62
     7
 10
15.4060372872533
 20
3.0404297849016051
 30
0.0
 42
0.3148787469664244
  0
VERTEX
  5
285
  8
LINE
 62
     7
 10
15.434212350398569
 20
3.0601261051336741
 30
0.0
  0
VERTEX
  5
286
  8
LINE
 62
     7
 10
15.50728194496379
 20
3.2599324352257462
 30
0.0
 42
0.5210528002024738
  0
VERTEX
  5
287
  8
LINE
 62
     7
 10
15.47910688181852
 20
3.3002361149936781
 30
0.0
  0
SEQEND
  5
288
  8
LINE
 62
     7
  0
POLYLINE
  5
66
  8
LINE
 62
     7
 66
     1
 10
0.0
 20
0.0
 30
0.0
 70
   129
  0
VERTEX
  5
289
  8
LINE
 62
     7
 10
14.696944532484981
 20
3.4045712632635312
 30
0.0
  0
VERTEX
  5
28A
  8
LINE
 62
     7
 10
14.679265064643451
 20
3.356227357588176
 30
0.0
  0
VERTEX
  5
28B
  8
LINE
 62
     7
 10
14.73542564787985
 20
3.4045712632635299
 30
0.0
  0
VERTEX
  5
28C
  8
LINE
 62
     7
 10
14.957020704032139
 20
3.4045712632635299
 30
0.0
 42
-0.5210528002024759
  0
VERTEX
  5
28D
  8
LINE
 62
     7
 10
15.04154589346795
 20
3.2836602239597341
 30
0.0
  0
VERTEX
  5
28E
  8
LINE
 62
     7
 10
14.91468306367516
 20
2.9367581151302451
 30
0.0
  0
VERTEX
  5
28F
  8
LINE
 62
     7
 10
14.68527996239095
 20
2.9367581151302451
 30
0.0
  0
VERTEX
  5
290
  8
LINE
 62
     7
 10
14.81866180311143
 20
3.3014862384195278
 30
0.0
  0
VERTEX
  5
291
  8
LINE
 62
     7
 10
14.65924612239143
 20
3.3014862384195278
 30
0.0
  0
VERTEX
  5
292
  8
LINE
 62
     7
 10
14.525864281670961
 20
2.9367581151302451
 30
0.0
  0
VERTEX
  5
293
  8
LINE
 62
     7
 10
14.28868482796536
 20
2.9367581151302451
 30
0.0
  0
VERTEX
  5
294
  8
LINE
 62
     7
 10
14.45976507877938
 20
3.4045712632635299
 30
0.0
  0
SEQEND
  5
295
  8
LINE
 62
     7
  0
POLYLINE
  5
67
  8
LINE
 62
     7
 66
     1
 10
0.0
 20
0.0
 30
0.0
 70
   129
  0
VERTEX
  5
296
  8
LINE
 62
     7
 10
14.404686435391399
 20
3.551659896785071
 30
0.0
  0
VERTEX
  5
297
  8
LINE
 62
     7
 10
14.373588729413431
 20
3.4666242736546522
 30
0.0
  0
VERTEX
  5
298
  8
LINE
 62
     7
 10
14.175291162200629
 20
3.4666242736546522
 30
0.0
  0
VERTEX
  5
299
  8
LINE
 62
     7
 10
14.2063888681786
 20
3.551659896785071
 30
0.0
  0
SEQEND
  5
29A
  8
LINE
 62
     7
  0
POLYLINE
  5
68
  8
LINE
 62
     7
 66
     1
 10
0.0
 20
0.0
 30
0.0
 70
   129
  0
VERTEX
  5
29B
  8
LINE
 62
     7
 10
11.72033546062687
 20
4.9106503716445324
 30
0.0
  0
VERTEX
  5
29C
  8
LINE
 62
     7
 10
11.827785753423161
 20
4.9354077586254608
 30
0.0
 42
0.2550384890031827
  0
VERTEX
  5
29D
  8
LINE
 62
     7
 10
12.09643119389813
 20
5.173840179340794
 30
0.0
  0
VERTEX
  5
29E
  8
LINE
 62
     7
 10
12.238375524831071
 20
5.568223303829793
 30
0.0
 42
0.5194282408196473
  0
VERTEX
  5
29F
  8
LINE
 62
     7
 10
11.979624463022439
 20
5.9363516454498884
 30
0.0
  0
VERTEX
  5
2A0
  8
LINE
 62
     7
 10
10.56072112139722
 20
5.9363516454498884
 30
0.0
  0
VERTEX
  5
2A1
  8
LINE
 62
     7
 10
9.9765616793949867
 20
4.3133024935577877
 30
0.0
  0
VERTEX
  5
2A2
  8
LINE
 62
     7
 10
10.612039609387841
 20
4.3133024935577877
 30
0.0
  0
VERTEX
  5
2A3
  8
LINE
 62
     7
 10
10.820469259857131
 20
4.892410769654183
 30
0.0
  0
VERTEX
  5
2A4
  8
LINE
 62
     7
 10
11.10132396468995
 20
4.892410769654183
 30
0.0
  0
VERTEX
  5
2A5
  8
LINE
 62
     7
 10
11.404197033602539
 20
4.3133024935577877
 30
0.0
  0
VERTEX
  5
2A6
  8
LINE
 62
     7
 10
12.095308909024761
 20
4.3133024935577877
 30
0.0
  0
SEQEND
  5
2A7
  8
LINE
 62
     7
  0
POLYLINE
  5
69
  8
LINE
 62
     7
 66
     1
 10
0.0
 20
0.0
 30
0.0
 70
   129
  0
VERTEX
  5
2A8
  8
LINE
 62
     7
 10
9.2814235461893038
 20
5.2270046710491824
 30
0.0
  0
VERTEX
  5
2A9
  8
LINE
 62
     7
 10
8.9696482017945538
 20
5.2270046710491833
 30
0.0
  0
VERTEX
  5
2AA
  8
LINE
 62
     7
 10
8.7656910857489958
 20
4.6603230419969011
 30
0.0
  0
VERTEX
  5
2AB
  8
LINE
 62
     7
 10
9.1280912232952112
 20
4.6603230419969011
 30
0.0
 42
0.2973947631290758
  0
VERTEX
  5
2AC
  8
LINE
 62
     7
 10
9.4794760847330366
 20
4.8896012804226654
 30
0.0
  0
VERTEX
  5
2AD
  8
LINE
 62
     7
 10
9.5535884950212608
 20
5.0580250440301437
 30
0.0
 42
-0.2973947631290772
  0
VERTEX
  5
2AE
  8
LINE
 62
     7
 10
10.05554071698662
 20
5.3855483208019308
 30
0.0
  0
VERTEX
  5
2AF
  8
LINE
 62
     7
 10
10.221465489562799
 20
5.3855483208019308
 30
0.0
  0
VERTEX
  5
2B0
  8
LINE
 62
     7
 10
10.419707768549999
 20
5.9363516454498884
 30
0.0
  0
VERTEX
  5
2B1
  8
LINE
 62
     7
 10
10.17190377207509
 20
5.9363516454498884
 30
0.0
 42
0.2954255207507431
  0
VERTEX
  5
2B2
  8
LINE
 62
     7
 10
9.7157223774549326
 20
5.6410429623209408
 30
0.0
  0
VERTEX
  5
2B3
  8
LINE
 62
     7
 10
9.6316796209786624
 20
5.453742677955586
 30
0.0
 42
-0.2954255207507431
  0
SEQEND
  5
2B4
  8
LINE
 62
     7
  0
POLYLINE
  5
6A
  8
LINE
 62
     7
 66
     1
 10
0.0
 20
0.0
 30
0.0
 70
   129
  0
VERTEX
  5
2B5
  8
LINE
 62
     7
 10
9.8355483265477623
 20
4.3133024935577877
 30
0.0
  0
VERTEX
  5
2B6
  8
LINE
 62
     7
 10
10.04412470104176
 20
4.8928184328480651
 30
0.0
  0
VERTEX
  5
2B7
  8
LINE
 62
     7
 10
9.9208342622511019
 20
4.8928184328480651
 30
0.0
 42
0.3162846038198634
  0
VERTEX
  5
2B8
  8
LINE
 62
     7
 10
9.3295645631945927
 20
4.4772251596628561
 30
0.0
  0
VERTEX
  5
2B9
  8
LINE
 62
     7
 10
9.2705663664660314
 20
4.3133024935577877
 30
0.0
  0
SEQEND
  5
2BA
  8
LINE
 62
     7
  0
POLYLINE
  5
6B
  8
LINE
 62
     7
 66
     1
 10
0.0
 20
0.0
 30
0.0
 70
   129
  0
VERTEX
  5
2BB
  8
LINE
 62
     7
 10
11.551216530068791
 20
5.3443747327010254
 30
0.0
 42
-0.3162846038198696
  0
VERTEX
  5
2BC
  8
LINE
 62
     7
 10
11.363033939662509
 20
5.2121044356974533
 30
0.0
  0
VERTEX
  5
2BD
  8
LINE
 62
     7
 10
10.935531747859899
 20
5.2121044356974533
 30
0.0
  0
VERTEX
  5
2BE
  8
LINE
 62
     7
 10
11.08273169810618
 20
5.6210899578468663
 30
0.0
  0
VERTEX
  5
2BF
  8
LINE
 62
     7
 10
11.508539201264959
 20
5.6210899578468663
 30
0.0
 42
-0.5194282408196445
  0
VERTEX
  5
2C0
  8
LINE
 62
     7
 10
11.602630496468089
 20
5.4872251063486503
 30
0.0
  0
SEQEND
  5
2C1
  8
LINE
 62
     7
  0
ENDSEC
  0
EOF
